ISO-10303-21;
HEADER;
FILE_DESCRIPTION (( 'STEP AP203' ),
    '1' );
FILE_NAME ('Q-OZHWP-R2-12.7-780-M.STEP',
    '2020-12-22T09:14:41',
    ( '' ),
    ( '' ),
    'SwSTEP 2.0',
    'SolidWorks 2020',
    '' );
FILE_SCHEMA (( 'CONFIG_CONTROL_DESIGN' ));
ENDSEC;

DATA;
#1 = DATE_AND_TIME ( #194, #283 ) ;
#2 = DIRECTION ( 'NONE',  ( 0.000000000000000000, 0.000000000000000000, 1.000000000000000000 ) ) ;
#3 = APPROVAL_ROLE ( '' ) ;
#4 = CARTESIAN_POINT ( 'NONE',  ( 3.000000000000000888, 0.000000000000000000, 0.000000000000000000 ) ) ;
#5 = VECTOR ( 'NONE', #173, 1000.000000000000000 ) ;
#6 = PERSON_AND_ORGANIZATION_ROLE ( 'creator' ) ;
#7 = ORIENTED_EDGE ( 'NONE', *, *, #67, .T. ) ;
#8 = PERSON_AND_ORGANIZATION ( #290, #270 ) ;
#9 = EDGE_LOOP ( 'NONE', ( #105, #250 ) ) ;
#10 = PRODUCT_RELATED_PRODUCT_CATEGORY ( 'detail', '', ( #93 ) ) ;
#11 = VERTEX_POINT ( 'NONE', #254 ) ;
#12 = CARTESIAN_POINT ( 'NONE',  ( -1.500000000000000444, 0.000000000000000000, 6.349999999999999645 ) ) ;
#13 = CIRCLE ( 'NONE', #50, 6.349999999999999645 ) ;
#14 = EDGE_LOOP ( 'NONE', ( #208, #33, #253, #113 ) ) ;
#15 = LINE ( 'NONE', #114, #183 ) ;
#16 = DIRECTION ( 'NONE',  ( 0.000000000000000000, 0.000000000000000000, -1.000000000000000000 ) ) ;
#17 = DATE_TIME_ROLE ( 'classification_date' ) ;
#18 = CIRCLE ( 'NONE', #244, 6.349999999999999645 ) ;
#19 = CARTESIAN_POINT ( 'NONE',  ( 3.000000000000000000, 0.000000000000000000, 0.000000000000000000 ) ) ;
#20 = VERTEX_POINT ( 'NONE', #83 ) ;
#21 = DIRECTION ( 'NONE',  ( 0.000000000000000000, 0.000000000000000000, 1.000000000000000000 ) ) ;
#22 = CIRCLE ( 'NONE', #198, 12.69999999999999929 ) ;
#23 = CARTESIAN_POINT ( 'NONE',  ( -1.614212418857619014, 0.000000000000000000, 0.000000000000000000 ) ) ;
#24 = CARTESIAN_POINT ( 'NONE',  ( -1.500000000000000444, 7.776507174585692163E-16, -6.349999999999999645 ) ) ;
#25 = CIRCLE ( 'NONE', #158, 12.69999999999999929 ) ;
#26 = DIRECTION ( 'NONE',  ( -1.000000000000000000, -0.000000000000000000, -0.000000000000000000 ) ) ;
#27 = PERSON_AND_ORGANIZATION ( #290, #270 ) ;
#28 =( NAMED_UNIT ( * ) SI_UNIT ( $, .STERADIAN. ) SOLID_ANGLE_UNIT ( ) );
#29 = APPROVAL_STATUS ( 'not_yet_approved' ) ;
#30 = DIRECTION ( 'NONE',  ( -1.000000000000000000, -0.000000000000000000, -0.000000000000000000 ) ) ;
#31 = CC_DESIGN_DATE_AND_TIME_ASSIGNMENT ( #280, #17, ( #90 ) ) ;
#32 = CARTESIAN_POINT ( 'NONE',  ( -3.000000000000000000, 0.000000000000000000, 0.000000000000000000 ) ) ;
#33 = ORIENTED_EDGE ( 'NONE', *, *, #327, .T. ) ;
#34 = EDGE_LOOP ( 'NONE', ( #39, #314 ) ) ;
#35 = AXIS2_PLACEMENT_3D ( 'NONE', #58, #231, #16 ) ;
#36 = EDGE_CURVE ( 'NONE', #11, #264, #15, .T. ) ;
#37 = EDGE_LOOP ( 'NONE', ( #321, #182 ) ) ;
#38 = PRODUCT_DEFINITION_SHAPE ( 'NONE', 'NONE',  #228 ) ;
#39 = ORIENTED_EDGE ( 'NONE', *, *, #329, .F. ) ;
#40 = CARTESIAN_POINT ( 'NONE',  ( 3.000000000000000888, 7.776507174585692163E-16, -6.349999999999999645 ) ) ;
#41 = CC_DESIGN_APPROVAL ( #92, ( #228 ) ) ;
#42 = CYLINDRICAL_SURFACE ( 'NONE', #69, 12.69999999999999929 ) ;
#43 = DIRECTION ( 'NONE',  ( -1.000000000000000000, -0.000000000000000000, -0.000000000000000000 ) ) ;
#44 = EDGE_CURVE ( 'NONE', #63, #132, #65, .T. ) ;
#45 = FACE_OUTER_BOUND ( 'NONE', #178, .T. ) ;
#46 = CC_DESIGN_PERSON_AND_ORGANIZATION_ASSIGNMENT ( #155, #222, ( #80 ) ) ;
#47 = DIRECTION ( 'NONE',  ( 0.000000000000000000, 0.000000000000000000, 1.000000000000000000 ) ) ;
#48 = FACE_BOUND ( 'NONE', #9, .T. ) ;
#49 = CARTESIAN_POINT ( 'NONE',  ( -2.999999999999999556, 0.000000000000000000, 0.000000000000000000 ) ) ;
#50 = AXIS2_PLACEMENT_3D ( 'NONE', #49, #196, #127 ) ;
#51 = LOCAL_TIME ( 17, 14, 41.00000000000000000, #76 ) ;
#52 = CARTESIAN_POINT ( 'NONE',  ( -2.999999999999999556, 0.000000000000000000, 0.000000000000000000 ) ) ;
#53 = PERSON_AND_ORGANIZATION_ROLE ( 'creator' ) ;
#54 = VERTEX_POINT ( 'NONE', #12 ) ;
#55 = DIRECTION ( 'NONE',  ( -1.000000000000000000, -0.000000000000000000, -0.000000000000000000 ) ) ;
#56 = EDGE_LOOP ( 'NONE', ( #311, #205, #226, #184 ) ) ;
#57 = VECTOR ( 'NONE', #30, 1000.000000000000000 ) ;
#58 = CARTESIAN_POINT ( 'NONE',  ( -3.000000000000000000, 6.349999999999999645, 0.000000000000000000 ) ) ;
#59 = APPROVAL_DATE_TIME ( #84, #302 ) ;
#60 = CARTESIAN_POINT ( 'NONE',  ( -1.614212418857619014, 0.000000000000000000, 0.000000000000000000 ) ) ;
#61 = COORDINATED_UNIVERSAL_TIME_OFFSET ( 8, 0, .AHEAD. ) ;
#62 = ORIENTED_EDGE ( 'NONE', *, *, #67, .F. ) ;
#63 = VERTEX_POINT ( 'NONE', #162 ) ;
#64 = CIRCLE ( 'NONE', #238, 6.349999999999999645 ) ;
#65 = LINE ( 'NONE', #79, #188 ) ;
#66 = ORIENTED_EDGE ( 'NONE', *, *, #44, .F. ) ;
#67 = EDGE_CURVE ( 'NONE', #132, #264, #257, .T. ) ;
#68 = LINE ( 'NONE', #145, #161 ) ;
#69 = AXIS2_PLACEMENT_3D ( 'NONE', #236, #144, #237 ) ;
#70 = LOCAL_TIME ( 17, 14, 41.00000000000000000, #103 ) ;
#71 = DIRECTION ( 'NONE',  ( 0.000000000000000000, 0.000000000000000000, -1.000000000000000000 ) ) ;
#72 = CARTESIAN_POINT ( 'NONE',  ( -3.000000000000000000, 0.000000000000000000, 0.000000000000000000 ) ) ;
#73 = VECTOR ( 'NONE', #129, 1000.000000000000000 ) ;
#74 = DIRECTION ( 'NONE',  ( 0.000000000000000000, 0.000000000000000000, 1.000000000000000000 ) ) ;
#75 = DATE_AND_TIME ( #310, #70 ) ;
#76 = COORDINATED_UNIVERSAL_TIME_OFFSET ( 8, 0, .AHEAD. ) ;
#77 = CC_DESIGN_PERSON_AND_ORGANIZATION_ASSIGNMENT ( #104, #313, ( #90 ) ) ;
#78 = ORIENTED_EDGE ( 'NONE', *, *, #139, .T. ) ;
#79 = CARTESIAN_POINT ( 'NONE',  ( -1.614212418857619014, 1.555301434917138433E-15, -12.69999999999999929 ) ) ;
#80 = PRODUCT_DEFINITION_FORMATION_WITH_SPECIFIED_SOURCE ( 'ANY', '', #93, .NOT_KNOWN. ) ;
#81 = ORIENTED_EDGE ( 'NONE', *, *, #329, .T. ) ;
#82 = ADVANCED_FACE ( 'NONE', ( #207 ), #116, .F. ) ;
#83 = CARTESIAN_POINT ( 'NONE',  ( -2.999999999999999556, 7.776507174585692163E-16, -6.349999999999999645 ) ) ;
#84 = DATE_AND_TIME ( #256, #131 ) ;
#85 = ORIENTED_EDGE ( 'NONE', *, *, #262, .F. ) ;
#86 = FACE_OUTER_BOUND ( 'NONE', #315, .T. ) ;
#87 = CLOSED_SHELL ( 'NONE', ( #218, #163, #82, #115, #95, #286, #91, #216, #298, #147 ) ) ;
#88 =( GEOMETRIC_REPRESENTATION_CONTEXT ( 3 ) GLOBAL_UNCERTAINTY_ASSIGNED_CONTEXT ( ( #240 ) ) GLOBAL_UNIT_ASSIGNED_CONTEXT ( ( #333, #305, #28 ) ) REPRESENTATION_CONTEXT ( 'NONE', 'WORKASPACE' ) );
#89 = APPROVAL_STATUS ( 'not_yet_approved' ) ;
#90 = SECURITY_CLASSIFICATION ( '', '', #203 ) ;
#91 = ADVANCED_FACE ( 'NONE', ( #206, #86 ), #258, .F. ) ;
#92 = APPROVAL ( #126, 'UNSPECIFIED' ) ;
#93 = PRODUCT ( 'Q-OZHWP-R2-12.7-780-M', 'Q-OZHWP-R2-12.7-780-M', '', ( #150 ) ) ;
#94 = CIRCLE ( 'NONE', #325, 6.349999999999999645 ) ;
#95 = ADVANCED_FACE ( 'NONE', ( #323 ), #164, .F. ) ;
#96 = CARTESIAN_POINT ( 'NONE',  ( 1.500000000000000888, 7.776507174585692163E-16, -6.349999999999999645 ) ) ;
#97 = CARTESIAN_POINT ( 'NONE',  ( 3.000000000000000888, 0.000000000000000000, 0.000000000000000000 ) ) ;
#98 = ORIENTED_EDGE ( 'NONE', *, *, #44, .T. ) ;
#99 = CARTESIAN_POINT ( 'NONE',  ( -1.614212418857619014, 0.000000000000000000, 6.349999999999999645 ) ) ;
#100 = APPROVAL_PERSON_ORGANIZATION ( #153, #92, #201 ) ;
#101 = CALENDAR_DATE ( 2020, 22, 12 ) ;
#102 = CYLINDRICAL_SURFACE ( 'NONE', #213, 6.349999999999999645 ) ;
#103 = COORDINATED_UNIVERSAL_TIME_OFFSET ( 8, 0, .AHEAD. ) ;
#104 = PERSON_AND_ORGANIZATION ( #290, #270 ) ;
#105 = ORIENTED_EDGE ( 'NONE', *, *, #234, .T. ) ;
#106 = VERTEX_POINT ( 'NONE', #225 ) ;
#107 = DIRECTION ( 'NONE',  ( -1.000000000000000000, -0.000000000000000000, -0.000000000000000000 ) ) ;
#108 = PERSON_AND_ORGANIZATION ( #290, #270 ) ;
#109 = ORIENTED_EDGE ( 'NONE', *, *, #200, .F. ) ;
#110 = AXIS2_PLACEMENT_3D ( 'NONE', #60, #176, #282 ) ;
#111 = APPROVAL_PERSON_ORGANIZATION ( #108, #302, #261 ) ;
#112 = DIRECTION ( 'NONE',  ( 0.000000000000000000, 0.000000000000000000, 1.000000000000000000 ) ) ;
#113 = ORIENTED_EDGE ( 'NONE', *, *, #242, .F. ) ;
#114 = CARTESIAN_POINT ( 'NONE',  ( -1.614212418857619014, 0.000000000000000000, 12.69999999999999929 ) ) ;
#115 = ADVANCED_FACE ( 'NONE', ( #319 ), #179, .F. ) ;
#116 = CYLINDRICAL_SURFACE ( 'NONE', #217, 6.349999999999999645 ) ;
#117 = AXIS2_PLACEMENT_3D ( 'NONE', #23, #328, #47 ) ;
#118 = DIRECTION ( 'NONE',  ( -1.000000000000000000, -0.000000000000000000, -0.000000000000000000 ) ) ;
#119 = CC_DESIGN_APPROVAL ( #302, ( #90 ) ) ;
#120 = ORIENTED_EDGE ( 'NONE', *, *, #309, .F. ) ;
#121 = DIRECTION ( 'NONE',  ( 1.000000000000000000, 0.000000000000000000, 0.000000000000000000 ) ) ;
#122 = CIRCLE ( 'NONE', #300, 6.349999999999999645 ) ;
#123 = DIRECTION ( 'NONE',  ( -1.000000000000000000, -0.000000000000000000, -0.000000000000000000 ) ) ;
#124 = CARTESIAN_POINT ( 'NONE',  ( -1.614212418857619014, 7.776507174585692163E-16, -6.349999999999999645 ) ) ;
#125 = CC_DESIGN_PERSON_AND_ORGANIZATION_ASSIGNMENT ( #8, #53, ( #80 ) ) ;
#126 = APPROVAL_STATUS ( 'not_yet_approved' ) ;
#127 = DIRECTION ( 'NONE',  ( 0.000000000000000000, 0.000000000000000000, 1.000000000000000000 ) ) ;
#128 = APPROVAL_DATE_TIME ( #1, #92 ) ;
#129 = DIRECTION ( 'NONE',  ( -1.000000000000000000, -0.000000000000000000, -0.000000000000000000 ) ) ;
#130 = ORIENTED_EDGE ( 'NONE', *, *, #36, .T. ) ;
#131 = LOCAL_TIME ( 17, 14, 41.00000000000000000, #61 ) ;
#132 = VERTEX_POINT ( 'NONE', #268 ) ;
#133 = EDGE_CURVE ( 'NONE', #202, #142, #122, .T. ) ;
#134 = VERTEX_POINT ( 'NONE', #40 ) ;
#135 = ORIENTED_EDGE ( 'NONE', *, *, #260, .F. ) ;
#136 = EDGE_LOOP ( 'NONE', ( #81, #98, #235, #281 ) ) ;
#137 = CIRCLE ( 'NONE', #308, 12.69999999999999929 ) ;
#138 = EDGE_LOOP ( 'NONE', ( #288, #295, #223, #109 ) ) ;
#139 = EDGE_CURVE ( 'NONE', #264, #132, #137, .T. ) ;
#140 = ORIENTED_EDGE ( 'NONE', *, *, #200, .T. ) ;
#141 = CARTESIAN_POINT ( 'NONE',  ( -1.614212418857619014, 0.000000000000000000, 0.000000000000000000 ) ) ;
#142 = VERTEX_POINT ( 'NONE', #96 ) ;
#143 = PLANE ( 'NONE',  #210 ) ;
#144 = DIRECTION ( 'NONE',  ( -1.000000000000000000, -0.000000000000000000, -0.000000000000000000 ) ) ;
#145 = CARTESIAN_POINT ( 'NONE',  ( -1.614212418857619014, 0.000000000000000000, 6.349999999999999645 ) ) ;
#146 = CC_DESIGN_APPROVAL ( #148, ( #80 ) ) ;
#147 = ADVANCED_FACE ( 'NONE', ( #212 ), #143, .F. ) ;
#148 = APPROVAL ( #29, 'UNSPECIFIED' ) ;
#149 = FACE_OUTER_BOUND ( 'NONE', #34, .T. ) ;
#150 = MECHANICAL_CONTEXT ( 'NONE', #273, 'mechanical' ) ;
#151 = DIRECTION ( 'NONE',  ( -1.000000000000000000, -0.000000000000000000, -0.000000000000000000 ) ) ;
#152 = AXIS2_PLACEMENT_3D ( 'NONE', #191, #174, #247 ) ;
#153 = PERSON_AND_ORGANIZATION ( #290, #270 ) ;
#154 = EDGE_CURVE ( 'NONE', #54, #318, #296, .T. ) ;
#155 = PERSON_AND_ORGANIZATION ( #290, #270 ) ;
#156 = EDGE_LOOP ( 'NONE', ( #135, #85 ) ) ;
#157 = DIRECTION ( 'NONE',  ( 0.000000000000000000, 0.000000000000000000, 1.000000000000000000 ) ) ;
#158 = AXIS2_PLACEMENT_3D ( 'NONE', #19, #43, #21 ) ;
#159 = ORIENTED_EDGE ( 'NONE', *, *, #154, .F. ) ;
#160 = MANIFOLD_SOLID_BREP ( 'Ðý×', #87 ) ;
#161 = VECTOR ( 'NONE', #166, 1000.000000000000000 ) ;
#162 = CARTESIAN_POINT ( 'NONE',  ( 3.000000000000000000, 1.555301434917138433E-15, -12.69999999999999929 ) ) ;
#163 = ADVANCED_FACE ( 'NONE', ( #294 ), #265, .F. ) ;
#164 = CYLINDRICAL_SURFACE ( 'NONE', #110, 6.349999999999999645 ) ;
#165 = AXIS2_PLACEMENT_3D ( 'NONE', #141, #118, #233 ) ;
#166 = DIRECTION ( 'NONE',  ( -1.000000000000000000, -0.000000000000000000, -0.000000000000000000 ) ) ;
#167 = DIRECTION ( 'NONE',  ( 0.000000000000000000, 0.000000000000000000, 1.000000000000000000 ) ) ;
#168 = CARTESIAN_POINT ( 'NONE',  ( -1.500000000000000444, 6.349999999999999645, 0.000000000000000000 ) ) ;
#169 = CARTESIAN_POINT ( 'NONE',  ( 1.500000000000000888, 0.000000000000000000, 0.000000000000000000 ) ) ;
#170 = FACE_OUTER_BOUND ( 'NONE', #255, .T. ) ;
#171 = LINE ( 'NONE', #307, #57 ) ;
#172 = CC_DESIGN_DATE_AND_TIME_ASSIGNMENT ( #284, #195, ( #228 ) ) ;
#173 = DIRECTION ( 'NONE',  ( -1.000000000000000000, -0.000000000000000000, -0.000000000000000000 ) ) ;
#174 = DIRECTION ( 'NONE',  ( 1.000000000000000000, 0.000000000000000000, 0.000000000000000000 ) ) ;
#175 = CALENDAR_DATE ( 2020, 22, 12 ) ;
#176 = DIRECTION ( 'NONE',  ( -1.000000000000000000, -0.000000000000000000, -0.000000000000000000 ) ) ;
#177 = AXIS2_PLACEMENT_3D ( 'NONE', #246, #306, #277 ) ;
#178 = EDGE_LOOP ( 'NONE', ( #66, #243, #130, #62 ) ) ;
#179 = PLANE ( 'NONE',  #332 ) ;
#180 = EDGE_CURVE ( 'NONE', #63, #11, #25, .T. ) ;
#181 = SHAPE_DEFINITION_REPRESENTATION ( #38, #317 ) ;
#182 = ORIENTED_EDGE ( 'NONE', *, *, #331, .F. ) ;
#183 = VECTOR ( 'NONE', #291, 1000.000000000000000 ) ;
#184 = ORIENTED_EDGE ( 'NONE', *, *, #133, .T. ) ;
#185 = LINE ( 'NONE', #99, #5 ) ;
#186 = DIRECTION ( 'NONE',  ( 1.000000000000000000, 0.000000000000000000, 0.000000000000000000 ) ) ;
#187 = ORIENTED_EDGE ( 'NONE', *, *, #259, .T. ) ;
#188 = VECTOR ( 'NONE', #107, 1000.000000000000000 ) ;
#189 = DIRECTION ( 'NONE',  ( -1.000000000000000000, -0.000000000000000000, -0.000000000000000000 ) ) ;
#190 = CYLINDRICAL_SURFACE ( 'NONE', #117, 12.69999999999999929 ) ;
#191 = CARTESIAN_POINT ( 'NONE',  ( -1.500000000000000444, 0.000000000000000000, 0.000000000000000000 ) ) ;
#192 = CIRCLE ( 'NONE', #227, 6.349999999999999645 ) ;
#193 = DIRECTION ( 'NONE',  ( 0.000000000000000000, 0.000000000000000000, 1.000000000000000000 ) ) ;
#194 = CALENDAR_DATE ( 2020, 22, 12 ) ;
#195 = DATE_TIME_ROLE ( 'creation_date' ) ;
#196 = DIRECTION ( 'NONE',  ( -1.000000000000000000, -0.000000000000000000, -0.000000000000000000 ) ) ;
#197 = APPLICATION_PROTOCOL_DEFINITION ( 'international standard', 'config_control_design', 1994, #273 ) ;
#198 = AXIS2_PLACEMENT_3D ( 'NONE', #312, #55, #2 ) ;
#199 = DIRECTION ( 'NONE',  ( -1.000000000000000000, 0.000000000000000000, -0.000000000000000000 ) ) ;
#200 = EDGE_CURVE ( 'NONE', #54, #324, #68, .T. ) ;
#201 = APPROVAL_ROLE ( '' ) ;
#202 = VERTEX_POINT ( 'NONE', #211 ) ;
#203 = SECURITY_CLASSIFICATION_LEVEL ( 'unclassified' ) ;
#204 = CC_DESIGN_PERSON_AND_ORGANIZATION_ASSIGNMENT ( #304, #6, ( #228 ) ) ;
#205 = ORIENTED_EDGE ( 'NONE', *, *, #234, .F. ) ;
#206 = FACE_BOUND ( 'NONE', #156, .T. ) ;
#207 = FACE_OUTER_BOUND ( 'NONE', #14, .T. ) ;
#208 = ORIENTED_EDGE ( 'NONE', *, *, #267, .F. ) ;
#209 = CARTESIAN_POINT ( 'NONE',  ( -1.614212418857619014, 0.000000000000000000, 0.000000000000000000 ) ) ;
#210 = AXIS2_PLACEMENT_3D ( 'NONE', #168, #121, #71 ) ;
#211 = CARTESIAN_POINT ( 'NONE',  ( 1.500000000000000888, 0.000000000000000000, 6.349999999999999645 ) ) ;
#212 = FACE_OUTER_BOUND ( 'NONE', #230, .T. ) ;
#213 = AXIS2_PLACEMENT_3D ( 'NONE', #272, #151, #278 ) ;
#214 = DIRECTION ( 'NONE',  ( 0.000000000000000000, 0.000000000000000000, -1.000000000000000000 ) ) ;
#215 = APPROVAL_PERSON_ORGANIZATION ( #248, #148, #3 ) ;
#216 = ADVANCED_FACE ( 'NONE', ( #45 ), #42, .T. ) ;
#217 = AXIS2_PLACEMENT_3D ( 'NONE', #209, #320, #322 ) ;
#218 = ADVANCED_FACE ( 'NONE', ( #326 ), #190, .T. ) ;
#219 = COORDINATED_UNIVERSAL_TIME_OFFSET ( 8, 0, .AHEAD. ) ;
#220 = CARTESIAN_POINT ( 'NONE',  ( -2.999999999999999556, 0.000000000000000000, 6.349999999999999645 ) ) ;
#221 = APPLICATION_PROTOCOL_DEFINITION ( 'international standard', 'config_control_design', 1994, #293 ) ;
#222 = PERSON_AND_ORGANIZATION_ROLE ( 'design_supplier' ) ;
#223 = ORIENTED_EDGE ( 'NONE', *, *, #262, .T. ) ;
#224 = PERSON_AND_ORGANIZATION_ROLE ( 'design_owner' ) ;
#225 = CARTESIAN_POINT ( 'NONE',  ( 3.000000000000000888, 0.000000000000000000, 6.349999999999999645 ) ) ;
#226 = ORIENTED_EDGE ( 'NONE', *, *, #242, .T. ) ;
#227 = AXIS2_PLACEMENT_3D ( 'NONE', #52, #26, #193 ) ;
#228 = PRODUCT_DEFINITION ( 'UNKNOWN', '', #80, #330 ) ;
#229 = ORIENTED_EDGE ( 'NONE', *, *, #259, .F. ) ;
#230 = EDGE_LOOP ( 'NONE', ( #159, #229 ) ) ;
#231 = DIRECTION ( 'NONE',  ( 1.000000000000000000, 0.000000000000000000, 0.000000000000000000 ) ) ;
#232 = DIRECTION ( 'NONE',  ( -1.000000000000000000, -0.000000000000000000, -0.000000000000000000 ) ) ;
#233 = DIRECTION ( 'NONE',  ( 0.000000000000000000, 0.000000000000000000, 1.000000000000000000 ) ) ;
#234 = EDGE_CURVE ( 'NONE', #106, #134, #18, .T. ) ;
#235 = ORIENTED_EDGE ( 'NONE', *, *, #139, .F. ) ;
#236 = CARTESIAN_POINT ( 'NONE',  ( -1.614212418857619014, 0.000000000000000000, 0.000000000000000000 ) ) ;
#237 = DIRECTION ( 'NONE',  ( 0.000000000000000000, 0.000000000000000000, 1.000000000000000000 ) ) ;
#238 = AXIS2_PLACEMENT_3D ( 'NONE', #335, #275, #157 ) ;
#239 = DIRECTION ( 'NONE',  ( -1.000000000000000000, 0.000000000000000000, -0.000000000000000000 ) ) ;
#240 = UNCERTAINTY_MEASURE_WITH_UNIT (LENGTH_MEASURE( 1.000000000000000082E-05 ), #333, 'distance_accuracy_value', 'NONE');
#241 = DIRECTION ( 'NONE',  ( -0.000000000000000000, 0.000000000000000000, 1.000000000000000000 ) ) ;
#242 = EDGE_CURVE ( 'NONE', #106, #202, #185, .T. ) ;
#243 = ORIENTED_EDGE ( 'NONE', *, *, #180, .T. ) ;
#244 = AXIS2_PLACEMENT_3D ( 'NONE', #97, #299, #271 ) ;
#245 = LOCAL_TIME ( 17, 14, 41.00000000000000000, #219 ) ;
#246 = CARTESIAN_POINT ( 'NONE',  ( 0.000000000000000000, 0.000000000000000000, 0.000000000000000000 ) ) ;
#247 = DIRECTION ( 'NONE',  ( 0.000000000000000000, 0.000000000000000000, -1.000000000000000000 ) ) ;
#248 = PERSON_AND_ORGANIZATION ( #290, #270 ) ;
#249 = CARTESIAN_POINT ( 'NONE',  ( 3.000000000000000000, 12.69999999999999929, 0.000000000000000000 ) ) ;
#250 = ORIENTED_EDGE ( 'NONE', *, *, #267, .T. ) ;
#251 = CC_DESIGN_PERSON_AND_ORGANIZATION_ASSIGNMENT ( #27, #224, ( #93 ) ) ;
#252 = AXIS2_PLACEMENT_3D ( 'NONE', #249, #199, #241 ) ;
#253 = ORIENTED_EDGE ( 'NONE', *, *, #331, .T. ) ;
#254 = CARTESIAN_POINT ( 'NONE',  ( 3.000000000000000000, 0.000000000000000000, 12.69999999999999929 ) ) ;
#255 = EDGE_LOOP ( 'NONE', ( #120, #187, #140, #285 ) ) ;
#256 = CALENDAR_DATE ( 2020, 22, 12 ) ;
#257 = CIRCLE ( 'NONE', #276, 12.69999999999999929 ) ;
#258 = PLANE ( 'NONE',  #35 ) ;
#259 = EDGE_CURVE ( 'NONE', #318, #54, #289, .T. ) ;
#260 = EDGE_CURVE ( 'NONE', #324, #20, #192, .T. ) ;
#261 = APPROVAL_ROLE ( '' ) ;
#262 = EDGE_CURVE ( 'NONE', #20, #324, #13, .T. ) ;
#263 = DIRECTION ( 'NONE',  ( 0.000000000000000000, 0.000000000000000000, 1.000000000000000000 ) ) ;
#264 = VERTEX_POINT ( 'NONE', #301 ) ;
#265 = CYLINDRICAL_SURFACE ( 'NONE', #165, 6.349999999999999645 ) ;
#266 = CARTESIAN_POINT ( 'NONE',  ( -1.500000000000000444, 0.000000000000000000, 0.000000000000000000 ) ) ;
#267 = EDGE_CURVE ( 'NONE', #134, #106, #94, .T. ) ;
#268 = CARTESIAN_POINT ( 'NONE',  ( -3.000000000000000000, 1.555301434917138433E-15, -12.69999999999999929 ) ) ;
#269 = AXIS2_PLACEMENT_3D ( 'NONE', #266, #186, #214 ) ;
#270 = ORGANIZATION ( 'UNSPECIFIED', 'UNSPECIFIED', '' ) ;
#271 = DIRECTION ( 'NONE',  ( 0.000000000000000000, 0.000000000000000000, 1.000000000000000000 ) ) ;
#272 = CARTESIAN_POINT ( 'NONE',  ( -1.614212418857619014, 0.000000000000000000, 0.000000000000000000 ) ) ;
#273 = APPLICATION_CONTEXT ( 'configuration controlled 3d designs of mechanical parts and assemblies' ) ;
#274 = DIRECTION ( 'NONE',  ( -1.000000000000000000, -0.000000000000000000, -0.000000000000000000 ) ) ;
#275 = DIRECTION ( 'NONE',  ( -1.000000000000000000, -0.000000000000000000, -0.000000000000000000 ) ) ;
#276 = AXIS2_PLACEMENT_3D ( 'NONE', #32, #232, #112 ) ;
#277 = DIRECTION ( 'NONE',  ( 1.000000000000000000, 0.000000000000000000, 0.000000000000000000 ) ) ;
#278 = DIRECTION ( 'NONE',  ( 0.000000000000000000, 0.000000000000000000, 1.000000000000000000 ) ) ;
#279 = LINE ( 'NONE', #124, #73 ) ;
#280 = DATE_AND_TIME ( #175, #51 ) ;
#281 = ORIENTED_EDGE ( 'NONE', *, *, #36, .F. ) ;
#282 = DIRECTION ( 'NONE',  ( 0.000000000000000000, 0.000000000000000000, 1.000000000000000000 ) ) ;
#283 = LOCAL_TIME ( 17, 14, 41.00000000000000000, #334 ) ;
#284 = DATE_AND_TIME ( #101, #245 ) ;
#285 = ORIENTED_EDGE ( 'NONE', *, *, #260, .T. ) ;
#286 = ADVANCED_FACE ( 'NONE', ( #170 ), #102, .F. ) ;
#287 = CARTESIAN_POINT ( 'NONE',  ( 1.500000000000000444, 6.349999999999999645, 0.000000000000000000 ) ) ;
#288 = ORIENTED_EDGE ( 'NONE', *, *, #154, .T. ) ;
#289 = CIRCLE ( 'NONE', #152, 6.349999999999999645 ) ;
#290 = PERSON ( 'UNSPECIFIED', 'UNSPECIFIED', 'UNSPECIFIED', ('UNSPECIFIED'), ('UNSPECIFIED'), ('UNSPECIFIED') ) ;
#291 = DIRECTION ( 'NONE',  ( -1.000000000000000000, -0.000000000000000000, -0.000000000000000000 ) ) ;
#292 = DIRECTION ( 'NONE',  ( -0.000000000000000000, 0.000000000000000000, 1.000000000000000000 ) ) ;
#293 = APPLICATION_CONTEXT ( 'configuration controlled 3d designs of mechanical parts and assemblies' ) ;
#294 = FACE_OUTER_BOUND ( 'NONE', #138, .T. ) ;
#295 = ORIENTED_EDGE ( 'NONE', *, *, #309, .T. ) ;
#296 = CIRCLE ( 'NONE', #269, 6.349999999999999645 ) ;
#297 = CC_DESIGN_SECURITY_CLASSIFICATION ( #90, ( #80 ) ) ;
#298 = ADVANCED_FACE ( 'NONE', ( #149, #48 ), #303, .F. ) ;
#299 = DIRECTION ( 'NONE',  ( -1.000000000000000000, -0.000000000000000000, -0.000000000000000000 ) ) ;
#300 = AXIS2_PLACEMENT_3D ( 'NONE', #169, #189, #263 ) ;
#301 = CARTESIAN_POINT ( 'NONE',  ( -3.000000000000000000, 0.000000000000000000, 12.69999999999999929 ) ) ;
#302 = APPROVAL ( #89, 'UNSPECIFIED' ) ;
#303 = PLANE ( 'NONE',  #252 ) ;
#304 = PERSON_AND_ORGANIZATION ( #290, #270 ) ;
#305 =( NAMED_UNIT ( * ) PLANE_ANGLE_UNIT ( ) SI_UNIT ( $, .RADIAN. ) );
#306 = DIRECTION ( 'NONE',  ( 0.000000000000000000, 0.000000000000000000, 1.000000000000000000 ) ) ;
#307 = CARTESIAN_POINT ( 'NONE',  ( -1.614212418857619014, 7.776507174585692163E-16, -6.349999999999999645 ) ) ;
#308 = AXIS2_PLACEMENT_3D ( 'NONE', #72, #123, #167 ) ;
#309 = EDGE_CURVE ( 'NONE', #318, #20, #171, .T. ) ;
#310 = CALENDAR_DATE ( 2020, 22, 12 ) ;
#311 = ORIENTED_EDGE ( 'NONE', *, *, #327, .F. ) ;
#312 = CARTESIAN_POINT ( 'NONE',  ( 3.000000000000000000, 0.000000000000000000, 0.000000000000000000 ) ) ;
#313 = PERSON_AND_ORGANIZATION_ROLE ( 'classification_officer' ) ;
#314 = ORIENTED_EDGE ( 'NONE', *, *, #180, .F. ) ;
#315 = EDGE_LOOP ( 'NONE', ( #78, #7 ) ) ;
#316 = APPROVAL_DATE_TIME ( #75, #148 ) ;
#317 = ADVANCED_BREP_SHAPE_REPRESENTATION ( 'Q-OZHWP-R2-12.7-780-M', ( #160, #177 ), #88 ) ;
#318 = VERTEX_POINT ( 'NONE', #24 ) ;
#319 = FACE_OUTER_BOUND ( 'NONE', #37, .T. ) ;
#320 = DIRECTION ( 'NONE',  ( -1.000000000000000000, -0.000000000000000000, -0.000000000000000000 ) ) ;
#321 = ORIENTED_EDGE ( 'NONE', *, *, #133, .F. ) ;
#322 = DIRECTION ( 'NONE',  ( 0.000000000000000000, 0.000000000000000000, 1.000000000000000000 ) ) ;
#323 = FACE_OUTER_BOUND ( 'NONE', #56, .T. ) ;
#324 = VERTEX_POINT ( 'NONE', #220 ) ;
#325 = AXIS2_PLACEMENT_3D ( 'NONE', #4, #274, #74 ) ;
#326 = FACE_OUTER_BOUND ( 'NONE', #136, .T. ) ;
#327 = EDGE_CURVE ( 'NONE', #134, #142, #279, .T. ) ;
#328 = DIRECTION ( 'NONE',  ( -1.000000000000000000, -0.000000000000000000, -0.000000000000000000 ) ) ;
#329 = EDGE_CURVE ( 'NONE', #11, #63, #22, .T. ) ;
#330 = DESIGN_CONTEXT ( 'detailed design', #293, 'design' ) ;
#331 = EDGE_CURVE ( 'NONE', #142, #202, #64, .T. ) ;
#332 = AXIS2_PLACEMENT_3D ( 'NONE', #287, #239, #292 ) ;
#333 =( LENGTH_UNIT ( ) NAMED_UNIT ( * ) SI_UNIT ( .MILLI., .METRE. ) );
#334 = COORDINATED_UNIVERSAL_TIME_OFFSET ( 8, 0, .AHEAD. ) ;
#335 = CARTESIAN_POINT ( 'NONE',  ( 1.500000000000000888, 0.000000000000000000, 0.000000000000000000 ) ) ;
ENDSEC;
END-ISO-10303-21;
